  0
SECTION
  2
HEADER
  9
$ACADVER
  1
AC1015
  9
$ACADMAINTVER
 70
     6
  9
$DWGCODEPAGE
  3
ANSI_1254
  9
$INSBASE
 10
0.0
 20
0.0
 30
0.0
  9
$EXTMIN
 10
0.0
 20
0.0
 30
0.0
  9
$EXTMAX
 10
279.4
 20
215.9
 30
0.0
  9
$LIMMIN
 10
0.0
 20
0.0
  9
$LIMMAX
 10
279.4
 20
215.9
  9
$ORTHOMODE
 70
     0
  9
$REGENMODE
 70
     1
  9
$FILLMODE
 70
     1
  9
$QTEXTMODE
 70
     0
  9
$MIRRTEXT
 70
     1
  9
$LTSCALE
 40
1.0
  9
$ATTMODE
 70
     1
  9
$TEXTSIZE
 40
3.5
  9
$TRACEWID
 40
1.0
  9
$TEXTSTYLE
  7
Standard
  9
$CLAYER
  8
0
  9
$CELTYPE
  6
ByLayer
  9
$CECOLOR
 62
   256
  9
$CELTSCALE
 40
1.0
  9
$DISPSILH
 70
     0
  9
$DIMSCALE
 40
1.0
  9
$DIMASZ
 40
3.5
  9
$DIMEXO
 40
1.0
  9
$DIMDLI
 40
3.75
  9
$DIMRND
 40
0.0
  9
$DIMDLE
 40
0.0
  9
$DIMEXE
 40
1.0
  9
$DIMTP
 40
0.0
  9
$DIMTM
 40
0.0
  9
$DIMTXT
 40
3.5
  9
$DIMCEN
 40
2.5
  9
$DIMTSZ
 40
0.0
  9
$DIMTOL
 70
     0
  9
$DIMLIM
 70
     0
  9
$DIMTIH
 70
     1
  9
$DIMTOH
 70
     1
  9
$DIMSE1
 70
     0
  9
$DIMSE2
 70
     0
  9
$DIMTAD
 70
     1
  9
$DIMZIN
 70
     0
  9
$DIMBLK
  1

  9
$DIMASO
 70
     1
  9
$DIMSHO
 70
     1
  9
$DIMPOST
  1

  9
$DIMAPOST
  1

  9
$DIMALT
 70
     0
  9
$DIMALTD
 70
     3
  9
$DIMALTF
 40
0.0393700787
  9
$DIMLFAC
 40
1.0
  9
$DIMTOFL
 70
     1
  9
$DIMTVP
 40
0.0
  9
$DIMTIX
 70
     0
  9
$DIMSOXD
 70
     0
  9
$DIMSAH
 70
     0
  9
$DIMBLK1
  1

  9
$DIMBLK2
  1

  9
$DIMSTYLE
  2
ISO-25
  9
$DIMCLRD
 70
     0
  9
$DIMCLRE
 70
     0
  9
$DIMCLRT
 70
     0
  9
$DIMTFAC
 40
1.0
  9
$DIMGAP
 40
1.524
  9
$DIMJUST
 70
     0
  9
$DIMSD1
 70
     0
  9
$DIMSD2
 70
     0
  9
$DIMTOLJ
 70
     0
  9
$DIMTZIN
 70
     0
  9
$DIMALTZ
 70
     0
  9
$DIMALTTZ
 70
     0
  9
$DIMUPT
 70
     0
  9
$DIMDEC
 70
     2
  9
$DIMTDEC
 70
     2
  9
$DIMALTU
 70
     2
  9
$DIMALTTD
 70
     3
  9
$DIMTXSTY
  7
Standard
  9
$DIMAUNIT
 70
     0
  9
$DIMADEC
 70
     2
  9
$DIMALTRND
 40
0.0
  9
$DIMAZIN
 70
     0
  9
$DIMDSEP
 70
    44
  9
$DIMATFIT
 70
     3
  9
$DIMFRAC
 70
     0
  9
$DIMLDRBLK
  1

  9
$DIMLUNIT
 70
     2
  9
$DIMLWD
 70
    -2
  9
$DIMLWE
 70
    -2
  9
$DIMTMOVE
 70
     0
  9
$LUNITS
 70
     2
  9
$LUPREC
 70
     2
  9
$SKETCHINC
 40
1.0
  9
$FILLETRAD
 40
10.0
  9
$AUNITS
 70
     0
  9
$AUPREC
 70
     2
  9
$MENU
  1
.
  9
$ELEVATION
 40
0.0
  9
$PELEVATION
 40
0.0
  9
$THICKNESS
 40
0.0
  9
$LIMCHECK
 70
     0
  9
$CHAMFERA
 40
0.0
  9
$CHAMFERB
 40
0.0
  9
$CHAMFERC
 40
0.0
  9
$CHAMFERD
 40
0.0
  9
$SKPOLY
 70
     0
  9
$TDCREATE
 40
2458985.632872708
  9
$TDUCREATE
 40
2458985.507872708
  9
$TDUPDATE
 40
2458985.632873056
  9
$TDUUPDATE
 40
2458985.507873056
  9
$TDINDWG
 40
0.0000000116
  9
$TDUSRTIMER
 40
0.0000000116
  9
$USRTIMER
 70
     1
  9
$ANGBASE
 50
0.0
  9
$ANGDIR
 70
     0
  9
$PDMODE
 70
     0
  9
$PDSIZE
 40
-1.0
  9
$PLINEWID
 40
0.0
  9
$SPLFRAME
 70
     0
  9
$SPLINETYPE
 70
     6
  9
$SPLINESEGS
 70
     8
  9
$HANDSEED
  5
CC
  9
$SURFTAB1
 70
     6
  9
$SURFTAB2
 70
     6
  9
$SURFTYPE
 70
     6
  9
$SURFU
 70
     6
  9
$SURFV
 70
     6
  9
$UCSBASE
  2

  9
$UCSNAME
  2

  9
$UCSORG
 10
0.0
 20
0.0
 30
0.0
  9
$UCSXDIR
 10
1.0
 20
0.0
 30
0.0
  9
$UCSYDIR
 10
0.0
 20
1.0
 30
0.0
  9
$UCSORTHOREF
  2

  9
$UCSORTHOVIEW
 70
     0
  9
$UCSORGTOP
 10
0.0
 20
0.0
 30
0.0
  9
$UCSORGBOTTOM
 10
0.0
 20
0.0
 30
0.0
  9
$UCSORGLEFT
 10
0.0
 20
0.0
 30
0.0
  9
$UCSORGRIGHT
 10
0.0
 20
0.0
 30
0.0
  9
$UCSORGFRONT
 10
0.0
 20
0.0
 30
0.0
  9
$UCSORGBACK
 10
0.0
 20
0.0
 30
0.0
  9
$PUCSBASE
  2

  9
$PUCSNAME
  2

  9
$PUCSORG
 10
0.0
 20
0.0
 30
0.0
  9
$PUCSXDIR
 10
1.0
 20
0.0
 30
0.0
  9
$PUCSYDIR
 10
0.0
 20
1.0
 30
0.0
  9
$PUCSORTHOREF
  2

  9
$PUCSORTHOVIEW
 70
     0
  9
$PUCSORGTOP
 10
0.0
 20
0.0
 30
0.0
  9
$PUCSORGBOTTOM
 10
0.0
 20
0.0
 30
0.0
  9
$PUCSORGLEFT
 10
0.0
 20
0.0
 30
0.0
  9
$PUCSORGRIGHT
 10
0.0
 20
0.0
 30
0.0
  9
$PUCSORGFRONT
 10
0.0
 20
0.0
 30
0.0
  9
$PUCSORGBACK
 10
0.0
 20
0.0
 30
0.0
  9
$USERI1
 70
     0
  9
$USERI2
 70
     0
  9
$USERI3
 70
     0
  9
$USERI4
 70
     0
  9
$USERI5
 70
     0
  9
$USERR1
 40
0.0
  9
$USERR2
 40
0.0
  9
$USERR3
 40
0.0
  9
$USERR4
 40
0.0
  9
$USERR5
 40
0.0
  9
$WORLDVIEW
 70
     1
  9
$SHADEDGE
 70
     3
  9
$SHADEDIF
 70
    70
  9
$TILEMODE
 70
     1
  9
$MAXACTVP
 70
    64
  9
$PINSBASE
 10
0.0
 20
0.0
 30
0.0
  9
$PLIMCHECK
 70
     0
  9
$PEXTMIN
 10
1.0000000000E+20
 20
1.0000000000E+20
 30
1.0000000000E+20
  9
$PEXTMAX
 10
-1.0000000000E+20
 20
-1.0000000000E+20
 30
-1.0000000000E+20
  9
$PLIMMIN
 10
0.0
 20
0.0
  9
$PLIMMAX
 10
420.0
 20
297.0
  9
$UNITMODE
 70
     0
  9
$VISRETAIN
 70
     1
  9
$PLINEGEN
 70
     0
  9
$PSLTSCALE
 70
     1
  9
$TREEDEPTH
 70
  3020
  9
$CMLSTYLE
  2
Standard
  9
$CMLJUST
 70
     0
  9
$CMLSCALE
 40
20.0
  9
$PROXYGRAPHICS
 70
     1
  9
$MEASUREMENT
 70
     1
  9
$CELWEIGHT
370
    -1
  9
$ENDCAPS
280
     0
  9
$JOINSTYLE
280
     0
  9
$LWDISPLAY
290
     1
  9
$INSUNITS
 70
     4
  9
$HYPERLINKBASE
  1

  9
$STYLESHEET
  1

  9
$XEDIT
290
     1
  9
$CEPSNTYPE
380
     0
  9
$PSTYLEMODE
290
     1
  9
$FINGERPRINTGUID
  2
{740c7a83-14d4-4c7e-aea1-a4ee2dc9dbcb}
  9
$VERSIONGUID
  2
{FAEB1C32-E019-11D5-929B-00C0DF256EC4}
  9
$EXTNAMES
290
     1
  9
$PSVPSCALE
 40
0.0
  9
$OLESTARTUP
290
     0
  0
ENDSEC
  0
SECTION
  2
CLASSES
  0
CLASS
  1
ACDBDICTIONARYWDFLT
  2
AcDbDictionaryWithDefault
  3
ObjectDBX Classes
 90
        0
280
     0
281
     0
  0
CLASS
  1
VISUALSTYLE
  2
AcDbVisualStyle
  3
ObjectDBX Classes
 90
     4095
280
     0
281
     0
  0
CLASS
  1
MATERIAL
  2
AcDbMaterial
  3
ObjectDBX Classes
 90
     1153
280
     0
281
     0
  0
CLASS
  1
SCALE
  2
AcDbScale
  3
ObjectDBX Classes
 90
     1153
280
     0
281
     0
  0
CLASS
  1
TABLESTYLE
  2
AcDbTableStyle
  3
ObjectDBX Classes
 90
     4095
280
     0
281
     0
  0
CLASS
  1
MLEADERSTYLE
  2
AcDbMLeaderStyle
  3
ACDB_MLEADERSTYLE_CLASS
 90
     4095
280
     0
281
     0
  0
CLASS
  1
SUN
  2
AcDbSun
  3
SCENEOE
 90
     1153
280
     0
281
     0
  0
CLASS
  1
ACDBPLACEHOLDER
  2
AcDbPlaceHolder
  3
ObjectDBX Classes
 90
        0
280
     0
281
     0
  0
CLASS
  1
LAYOUT
  2
AcDbLayout
  3
ObjectDBX Classes
 90
        0
280
     0
281
     0
  0
ENDSEC
  0
SECTION
  2
TABLES
  0
TABLE
  2
VPORT
  5
8
330
0
100
AcDbSymbolTable
 70
     1
  0
VPORT
  5
29
330
8
100
AcDbSymbolTableRecord
100
AcDbViewportTableRecord
  2
*Active
 70
     0
 10
0.0
 20
0.0
 11
1.0
 21
1.0
 12
139.7
 22
107.95
 13
0.0
 23
0.0
 14
10.0
 24
10.0
 15
10.0
 25
10.0
 16
0.0
 26
0.0
 36
1.0
 17
0.0
 27
0.0
 37
0.0
 40
215.9
 41
1.2941176471
 42
50.0
 43
0.0
 44
0.0
 50
0.0
 51
0.0
 71
     0
 72
  2000
 73
     1
 74
     3
 75
     0
 76
     0
 77
     0
 78
     0
281
     0
 65
     1
110
0.0
120
0.0
130
0.0
111
1.0
121
0.0
131
0.0
112
0.0
122
1.0
132
0.0
 79
     0
146
0.0
  0
ENDTAB
  0
TABLE
  2
LTYPE
  5
5
330
0
100
AcDbSymbolTable
 70
     6
  0
LTYPE
  5
14
330
5
100
AcDbSymbolTableRecord
100
AcDbLinetypeTableRecord
  2
ByBlock
 70
     0
  3

 72
    65
 73
     0
 40
0.0
  0
LTYPE
  5
15
330
5
100
AcDbSymbolTableRecord
100
AcDbLinetypeTableRecord
  2
ByLayer
 70
     0
  3

 72
    65
 73
     0
 40
0.0
  0
LTYPE
  5
16
330
5
100
AcDbSymbolTableRecord
100
AcDbLinetypeTableRecord
  2
Continuous
 70
     0
  3
Solid line
 72
    65
 73
     0
 40
0.0
  0
LTYPE
  5
6E
330
5
100
AcDbSymbolTableRecord
100
AcDbLinetypeTableRecord
  2
HIDDEN
 70
     0
  3
Hidden __ __ __ __ __ __ __ __ __ __ __ __ __ __
 72
    65
 73
     2
 40
1.905
 49
1.27
 74
     0
 49
-0.635
 74
     0
  0
LTYPE
  5
6F
330
5
100
AcDbSymbolTableRecord
100
AcDbLinetypeTableRecord
  2
PHANTOM
 70
     0
  3
Phantom ______  __  __  ______  __  __  ______
 72
    65
 73
     6
 40
12.7
 49
6.35
 74
     0
 49
-1.27
 74
     0
 49
1.27
 74
     0
 49
-1.27
 74
     0
 49
1.27
 74
     0
 49
-1.27
 74
     0
  0
LTYPE
  5
70
330
5
100
AcDbSymbolTableRecord
100
AcDbLinetypeTableRecord
  2
CENTER
 70
     0
  3
Center ____ _ ____ _ ____ _ ____ _ ____ _ ____
 72
    65
 73
     4
 40
10.16
 49
6.35
 74
     0
 49
-1.27
 74
     0
 49
1.27
 74
     0
 49
-1.27
 74
     0
  0
LTYPE
  5
71
330
5
100
AcDbSymbolTableRecord
100
AcDbLinetypeTableRecord
  2
CENTERX2
 70
     0
  3
Center (2x) ________  __  ________  __  _____
 72
    65
 73
     4
 40
20.32
 49
12.7
 74
     0
 49
-2.54
 74
     0
 49
2.54
 74
     0
 49
-2.54
 74
     0
  0
LTYPE
  5
72
330
5
100
AcDbSymbolTableRecord
100
AcDbLinetypeTableRecord
  2
DOT2
 70
     0
  3
Dot (.5x) ........................................
 72
    65
 73
     2
 40
0.635
 49
0.0
 74
     0
 49
-0.635
 74
     0
  0
ENDTAB
  0
TABLE
  2
LAYER
  5
2
330
0
100
AcDbSymbolTable
 70
    17
  0
LAYER
  5
10
330
2
100
AcDbSymbolTableRecord
100
AcDbLayerTableRecord
  2
0
 70
     0
 62
     7
  6
Continuous
370
    -3
390
F
  0
LAYER
  5
73
330
2
100
AcDbSymbolTableRecord
100
AcDbLayerTableRecord
  2
FORMAT
 70
     0
 62
     7
  6
Continuous
370
    -3
390
F
  0
LAYER
  5
74
330
2
100
AcDbSymbolTableRecord
100
AcDbLayerTableRecord
  2
YARDIMCI_GEOMETRI
 70
     0
 62
    -6
  6
Continuous
290
     0
370
    -3
390
F
  0
LAYER
  5
75
330
2
100
AcDbSymbolTableRecord
100
AcDbLayerTableRecord
  2
SAYFA_CERCEVESI
 70
     0
 62
     7
  6
Continuous
370
    25
390
F
  0
LAYER
  5
76
330
2
100
AcDbSymbolTableRecord
100
AcDbLayerTableRecord
  2
ANTET
 70
     0
 62
     7
  6
Continuous
370
    -3
390
F
  0
LAYER
  5
77
330
2
100
AcDbSymbolTableRecord
100
AcDbLayerTableRecord
  2
OLCU
 70
     0
 62
   150
  6
Continuous
370
    -3
390
F
  0
LAYER
  5
78
330
2
100
AcDbSymbolTableRecord
100
AcDbLayerTableRecord
  2
METIN
 70
     0
 62
    96
  6
Continuous
370
    -3
390
F
  0
LAYER
  5
79
330
2
100
AcDbSymbolTableRecord
100
AcDbLayerTableRecord
  2
BALON
 70
     0
 62
     5
  6
Continuous
370
    -3
390
F
  0
LAYER
  5
7A
330
2
100
AcDbSymbolTableRecord
100
AcDbLayerTableRecord
  2
VURGU
 70
     0
 62
     7
  6
Continuous
370
    -3
390
F
  0
LAYER
  5
7B
330
2
100
AcDbSymbolTableRecord
100
AcDbLayerTableRecord
  2
SILIK
 70
     0
 62
     7
  6
Continuous
370
    -3
390
F
  0
LAYER
  5
7C
330
2
100
AcDbSymbolTableRecord
100
AcDbLayerTableRecord
  2
MODEL
 70
     0
 62
     7
  6
Continuous
370
    -3
390
F
  0
LAYER
  5
7D
330
2
100
AcDbSymbolTableRecord
100
AcDbLayerTableRecord
  2
DETAYLANDıRMA
 70
     0
 62
   190
  6
Continuous
370
    -3
390
F
  0
LAYER
  5
7E
330
2
100
AcDbSymbolTableRecord
100
AcDbLayerTableRecord
  2
TOLERANS
 70
     0
 62
   230
  6
Continuous
370
    -3
390
F
  0
LAYER
  5
7F
330
2
100
AcDbSymbolTableRecord
100
AcDbLayerTableRecord
  2
MERKEZ_CIZGILERI
 70
     0
 62
    30
  6
Continuous
370
    -3
390
F
  0
LAYER
  5
80
330
2
100
AcDbSymbolTableRecord
100
AcDbLayerTableRecord
  2
KESIT-DETAY_CIZGILERI
 70
     0
 62
     7
  6
Continuous
370
    -3
390
F
  0
LAYER
  5
81
330
2
100
AcDbSymbolTableRecord
100
AcDbLayerTableRecord
  2
\U+041E\U+0421\U+0415\U+0412\U+042B\U+0415
 70
     0
 62
     7
  6
Continuous
370
    -3
390
F
  0
LAYER
  5
82
330
2
100
AcDbSymbolTableRecord
100
AcDbLayerTableRecord
  2
\U+0412\U+041E\U+0414\U+042F\U+041D\U+042B\U+0415_\U+0417\U+041D\U+0410\U+041A\U+0418
 70
     0
 62
    11
  6
Continuous
370
    -3
390
F
  0
ENDTAB
  0
TABLE
  2
STYLE
  5
3
330
0
100
AcDbSymbolTable
 70
     1
  0
STYLE
  5
11
330
3
100
AcDbSymbolTableRecord
100
AcDbTextStyleTableRecord
  2
Standard
 70
     0
 40
0.0
 41
1.0
 50
0.0
 71
     0
 42
3.5
  3
txt
  4

  0
ENDTAB
  0
TABLE
  2
VIEW
  5
6
330
0
100
AcDbSymbolTable
 70
     0
  0
ENDTAB
  0
TABLE
  2
UCS
  5
7
330
0
100
AcDbSymbolTable
 70
     0
  0
ENDTAB
  0
TABLE
  2
APPID
  5
9
330
0
100
AcDbSymbolTable
 70
     1
  0
APPID
  5
12
330
9
100
AcDbSymbolTableRecord
100
AcDbRegAppTableRecord
  2
ACAD
 70
     0
  0
ENDTAB
  0
TABLE
  2
DIMSTYLE
  5
A
330
0
100
AcDbSymbolTable
 70
     1
100
AcDbDimStyleTable
  0
DIMSTYLE
105
27
330
A
100
AcDbSymbolTableRecord
100
AcDbDimStyleTableRecord
  2
ISO-25
 70
     0
 41
2.5
 42
0.625
 43
3.75
 44
1.25
 73
     0
 74
     0
 77
     1
 78
     8
140
2.5
141
2.5
143
0.0393700787
147
0.625
171
     3
172
     1
178
     0
271
     2
272
     2
274
     3
278
    44
283
     0
284
     8
340
11
  0
ENDTAB
  0
TABLE
  2
BLOCK_RECORD
  5
1
330
0
100
AcDbSymbolTable
 70
     2
  0
BLOCK_RECORD
  5
1F
330
1
100
AcDbSymbolTableRecord
100
AcDbBlockTableRecord
  2
*Model_Space
340
22
  0
BLOCK_RECORD
  5
1B
330
1
100
AcDbSymbolTableRecord
100
AcDbBlockTableRecord
  2
*Paper_Space
340
1E
  0
BLOCK_RECORD
  5
23
330
1
100
AcDbSymbolTableRecord
100
AcDbBlockTableRecord
  2
*Paper_Space0
340
26
  0
BLOCK_RECORD
  5
87
330
1
100
AcDbSymbolTableRecord
100
AcDbBlockTableRecord
  2
SW_CENTERMARKSYMBOL_0
340
0
102
{BLKREFS
331
92
102
}
  0
ENDTAB
  0
ENDSEC
  0
SECTION
  2
BLOCKS
  0
BLOCK
  5
20
330
1F
100
AcDbEntity
  8
0
100
AcDbBlockBegin
  2
*Model_Space
 70
     0
 10
0.0
 20
0.0
 30
0.0
  3
*Model_Space
  1

  0
ENDBLK
  5
21
330
1F
100
AcDbEntity
  8
0
100
AcDbBlockEnd
  0
BLOCK
  5
1C
330
1B
100
AcDbEntity
 67
     1
  8
0
100
AcDbBlockBegin
  2
*Paper_Space
 70
     0
 10
0.0
 20
0.0
 30
0.0
  3
*Paper_Space
  1

  0
ENDBLK
  5
1D
330
1B
100
AcDbEntity
 67
     1
  8
0
100
AcDbBlockEnd
  0
BLOCK
  5
24
330
23
100
AcDbEntity
  8
0
100
AcDbBlockBegin
  2
*Paper_Space0
 70
     0
 10
0.0
 20
0.0
 30
0.0
  3
*Paper_Space0
  1

  0
ENDBLK
  5
25
330
23
100
AcDbEntity
  8
0
100
AcDbBlockEnd
  0
BLOCK
  5
88
330
87
100
AcDbEntity
  8
0
100
AcDbBlockBegin
  2
SW_CENTERMARKSYMBOL_0
 70
     0
 10
0.0
 20
0.0
 30
0.0
  3
SW_CENTERMARKSYMBOL_0
  1

  0
LINE
  5
8A
330
87
100
AcDbEntity
  8
FORMAT
 62
     0
100
AcDbLine
 10
0.0
 20
0.0
 30
0.0
 11
0.0
 21
2.5
 31
0.0
  0
LINE
  5
8B
330
87
100
AcDbEntity
  8
FORMAT
 62
     0
100
AcDbLine
 10
0.0
 20
0.0
 30
0.0
 11
-2.5
 21
0.0
 31
0.0
  0
LINE
  5
8C
330
87
100
AcDbEntity
  8
FORMAT
 62
     0
100
AcDbLine
 10
0.0
 20
0.0
 30
0.0
 11
0.0
 21
-2.5
 31
0.0
  0
LINE
  5
8D
330
87
100
AcDbEntity
  8
FORMAT
 62
     0
100
AcDbLine
 10
0.0
 20
0.0
 30
0.0
 11
2.5
 21
0.0
 31
0.0
  0
LINE
  5
8E
330
87
100
AcDbEntity
  8
FORMAT
 62
     0
100
AcDbLine
 10
0.0
 20
5.0
 30
0.0
 11
0.0
 21
36.5
 31
0.0
  0
LINE
  5
8F
330
87
100
AcDbEntity
  8
FORMAT
 62
     0
100
AcDbLine
 10
-5.0
 20
0.0
 30
0.0
 11
-36.5
 21
0.0
 31
0.0
  0
LINE
  5
90
330
87
100
AcDbEntity
  8
FORMAT
 62
     0
100
AcDbLine
 10
0.0
 20
-5.0
 30
0.0
 11
0.0
 21
-36.5
 31
0.0
  0
LINE
  5
91
330
87
100
AcDbEntity
  8
FORMAT
 62
     0
100
AcDbLine
 10
5.0
 20
0.0
 30
0.0
 11
36.5
 21
0.0
 31
0.0
  0
ENDBLK
  5
89
330
87
100
AcDbEntity
  8
0
100
AcDbBlockEnd
  0
ENDSEC
  0
SECTION
  2
ENTITIES
  0
CIRCLE
  5
83
330
1F
100
AcDbEntity
  8
0
  6
Continuous
 62
     7
370
    25
100
AcDbCircle
 10
144.6194512726
 20
109.9575846328
 30
0.0
 40
16.0
  0
CIRCLE
  5
84
330
1F
100
AcDbEntity
  8
0
  6
Continuous
 62
     7
370
    25
100
AcDbCircle
 10
144.6194512726
 20
109.9575846328
 30
0.0
 40
13.0
  0
CIRCLE
  5
85
330
1F
100
AcDbEntity
  8
0
  6
Continuous
 62
     7
370
    25
100
AcDbCircle
 10
144.6194512726
 20
109.9575846328
 30
0.0
 40
21.0
  0
CIRCLE
  5
86
330
1F
100
AcDbEntity
  8
0
  6
Continuous
 62
     7
370
    25
100
AcDbCircle
 10
144.6194512726
 20
109.9575846328
 30
0.0
 40
34.0
  0
INSERT
  5
92
330
1F
100
AcDbEntity
  8
FORMAT
 62
     7
100
AcDbBlockReference
  2
SW_CENTERMARKSYMBOL_0
 10
144.6194512726
 20
109.9575846328
 30
0.0
  0
LINE
  5
93
330
1F
100
AcDbEntity
  8
0
  6
Continuous
 62
     7
370
    25
100
AcDbLine
 10
178.6194512726
 20
163.2669335238
 30
0.0
 11
178.6194512726
 21
173.2669335238
 31
0.0
  0
LINE
  5
94
330
1F
100
AcDbEntity
  8
0
  6
Continuous
 62
     7
370
    25
100
AcDbLine
 10
110.6194512726
 20
173.2669335238
 30
0.0
 11
110.6194512726
 21
163.2669335238
 31
0.0
  0
LINE
  5
95
330
1F
100
AcDbEntity
  8
0
  6
Continuous
 62
     7
370
    25
100
AcDbLine
 10
165.6194512726
 20
173.2669335238
 30
0.0
 11
160.6194512726
 21
188.2669335238
 31
0.0
  0
LINE
  5
96
330
1F
100
AcDbEntity
  8
0
  6
Continuous
 62
     7
370
    25
100
AcDbLine
 10
128.6194512726
 20
188.2669335238
 30
0.0
 11
123.6194512726
 21
173.2669335238
 31
0.0
  0
LINE
  5
97
330
1F
100
AcDbEntity
  8
0
  6
Continuous
 62
     7
370
    25
100
AcDbLine
 10
160.6194512726
 20
188.2669335238
 30
0.0
 11
160.6194512726
 21
249.2669335238
 31
0.0
  0
LINE
  5
98
330
1F
100
AcDbEntity
  8
0
  6
Continuous
 62
     7
370
    25
100
AcDbLine
 10
128.6194512726
 20
249.2669335238
 30
0.0
 11
128.6194512726
 21
188.2669335238
 31
0.0
  0
LINE
  5
99
330
1F
100
AcDbEntity
  8
0
  6
Continuous
 62
     7
370
    25
100
AcDbLine
 10
178.6194512726
 20
163.2669335238
 30
0.0
 11
110.6194512726
 21
163.2669335238
 31
0.0
  0
LINE
  5
9A
330
1F
100
AcDbEntity
  8
0
  6
Continuous
 62
     7
370
    25
100
AcDbLine
 10
178.6194512726
 20
173.2669335238
 30
0.0
 11
110.6194512726
 21
173.2669335238
 31
0.0
  0
LINE
  5
9B
330
1F
100
AcDbEntity
  8
0
  6
Continuous
 62
     7
370
    25
100
AcDbLine
 10
160.6194512726
 20
188.2669335238
 30
0.0
 11
128.6194512726
 21
188.2669335238
 31
0.0
  0
LINE
  5
9C
330
1F
100
AcDbEntity
  8
0
  6
Continuous
 62
     7
370
    25
100
AcDbLine
 10
160.6194512726
 20
249.2669335238
 30
0.0
 11
128.6194512726
 21
249.2669335238
 31
0.0
  0
LINE
  5
9D
330
1F
100
AcDbEntity
  8
0
  6
Continuous
 62
     7
370
    25
100
AcDbLine
 10
91.0174417242
 20
143.9575846328
 30
0.0
 11
81.0174417242
 21
143.9575846328
 31
0.0
  0
LINE
  5
9E
330
1F
100
AcDbEntity
  8
0
  6
Continuous
 62
     7
370
    25
100
AcDbLine
 10
81.0174417242
 20
75.9575846328
 30
0.0
 11
91.0174417242
 21
75.9575846328
 31
0.0
  0
LINE
  5
9F
330
1F
100
AcDbEntity
  8
0
  6
Continuous
 62
     7
370
    25
100
AcDbLine
 10
81.0174417242
 20
130.9575846328
 30
0.0
 11
66.0174417242
 21
125.9575846328
 31
0.0
  0
LINE
  5
A0
330
1F
100
AcDbEntity
  8
0
  6
Continuous
 62
     7
370
    25
100
AcDbLine
 10
66.0174417242
 20
93.9575846328
 30
0.0
 11
81.0174417242
 21
88.9575846328
 31
0.0
  0
LINE
  5
A1
330
1F
100
AcDbEntity
  8
0
  6
Continuous
 62
     7
370
    25
100
AcDbLine
 10
66.0174417242
 20
125.9575846328
 30
0.0
 11
5.0174417242
 21
125.9575846328
 31
0.0
  0
LINE
  5
A2
330
1F
100
AcDbEntity
  8
0
  6
Continuous
 62
     7
370
    25
100
AcDbLine
 10
5.0174417242
 20
93.9575846328
 30
0.0
 11
66.0174417242
 21
93.9575846328
 31
0.0
  0
LINE
  5
A3
330
1F
100
AcDbEntity
  8
0
  6
Continuous
 62
     7
370
    25
100
AcDbLine
 10
91.0174417242
 20
143.9575846328
 30
0.0
 11
91.0174417242
 21
75.9575846328
 31
0.0
  0
LINE
  5
A4
330
1F
100
AcDbEntity
  8
0
  6
Continuous
 62
     7
370
    25
100
AcDbLine
 10
81.0174417242
 20
143.9575846328
 30
0.0
 11
81.0174417242
 21
75.9575846328
 31
0.0
  0
LINE
  5
A5
330
1F
100
AcDbEntity
  8
0
  6
Continuous
 62
     7
370
    25
100
AcDbLine
 10
66.0174417242
 20
125.9575846328
 30
0.0
 11
66.0174417242
 21
93.9575846328
 31
0.0
  0
LINE
  5
A6
330
1F
100
AcDbEntity
  8
0
  6
Continuous
 62
     7
370
    25
100
AcDbLine
 10
5.0174417242
 20
125.9575846328
 30
0.0
 11
5.0174417242
 21
93.9575846328
 31
0.0
  0
LINE
  5
A7
330
1F
100
AcDbEntity
  8
0
  6
Continuous
 62
     7
370
    25
100
AcDbLine
 10
202.3427703994
 20
75.9575846328
 30
0.0
 11
212.3427703994
 21
75.9575846328
 31
0.0
  0
LINE
  5
A8
330
1F
100
AcDbEntity
  8
0
  6
Continuous
 62
     7
370
    25
100
AcDbLine
 10
212.3427703994
 20
143.9575846328
 30
0.0
 11
202.3427703994
 21
143.9575846328
 31
0.0
  0
LINE
  5
A9
330
1F
100
AcDbEntity
  8
0
  6
Continuous
 62
     7
370
    25
100
AcDbLine
 10
212.3427703994
 20
88.9575846328
 30
0.0
 11
227.3427703994
 21
93.9575846328
 31
0.0
  0
LINE
  5
AA
330
1F
100
AcDbEntity
  8
0
  6
Continuous
 62
     7
370
    25
100
AcDbLine
 10
227.3427703994
 20
125.9575846328
 30
0.0
 11
212.3427703994
 21
130.9575846328
 31
0.0
  0
LINE
  5
AB
330
1F
100
AcDbEntity
  8
0
  6
Continuous
 62
     7
370
    25
100
AcDbLine
 10
227.3427703994
 20
93.9575846328
 30
0.0
 11
288.3427703994
 21
93.9575846328
 31
0.0
  0
LINE
  5
AC
330
1F
100
AcDbEntity
  8
0
  6
Continuous
 62
     7
370
    25
100
AcDbLine
 10
288.3427703994
 20
125.9575846328
 30
0.0
 11
227.3427703994
 21
125.9575846328
 31
0.0
  0
LINE
  5
AD
330
1F
100
AcDbEntity
  8
0
  6
Continuous
 62
     7
370
    25
100
AcDbLine
 10
202.3427703994
 20
109.9575846328
 30
0.0
 11
202.3427703994
 21
143.9575846328
 31
0.0
  0
LINE
  5
AE
330
1F
100
AcDbEntity
  8
0
  6
Continuous
 62
     7
370
    25
100
AcDbLine
 10
202.3427703994
 20
75.9575846328
 30
0.0
 11
202.3427703994
 21
109.9575846328
 31
0.0
  0
LINE
  5
AF
330
1F
100
AcDbEntity
  8
0
  6
Continuous
 62
     7
370
    25
100
AcDbLine
 10
212.3427703994
 20
109.9575846328
 30
0.0
 11
212.3427703994
 21
143.9575846328
 31
0.0
  0
LINE
  5
B0
330
1F
100
AcDbEntity
  8
0
  6
Continuous
 62
     7
370
    25
100
AcDbLine
 10
212.3427703994
 20
75.9575846328
 30
0.0
 11
212.3427703994
 21
109.9575846328
 31
0.0
  0
LINE
  5
B1
330
1F
100
AcDbEntity
  8
0
  6
Continuous
 62
     7
370
    25
100
AcDbLine
 10
227.3427703994
 20
109.9575846328
 30
0.0
 11
227.3427703994
 21
125.9575846328
 31
0.0
  0
LINE
  5
B2
330
1F
100
AcDbEntity
  8
0
  6
Continuous
 62
     7
370
    25
100
AcDbLine
 10
227.3427703994
 20
93.9575846328
 30
0.0
 11
227.3427703994
 21
109.9575846328
 31
0.0
  0
LINE
  5
B3
330
1F
100
AcDbEntity
  8
0
  6
Continuous
 62
     7
370
    25
100
AcDbLine
 10
288.3427703994
 20
109.9575846328
 30
0.0
 11
288.3427703994
 21
125.9575846328
 31
0.0
  0
LINE
  5
B4
330
1F
100
AcDbEntity
  8
0
  6
Continuous
 62
     7
370
    25
100
AcDbLine
 10
288.3427703994
 20
93.9575846328
 30
0.0
 11
288.3427703994
 21
109.9575846328
 31
0.0
  0
LINE
  5
B5
330
1F
100
AcDbEntity
  8
0
  6
Continuous
 62
     7
370
    25
100
AcDbLine
 10
110.6194512726
 20
56.8525627528
 30
0.0
 11
110.6194512726
 21
46.8525627528
 31
0.0
  0
LINE
  5
B6
330
1F
100
AcDbEntity
  8
0
  6
Continuous
 62
     7
370
    25
100
AcDbLine
 10
178.6194512726
 20
46.8525627528
 30
0.0
 11
178.6194512726
 21
56.8525627528
 31
0.0
  0
LINE
  5
B7
330
1F
100
AcDbEntity
  8
0
  6
Continuous
 62
     7
370
    25
100
AcDbLine
 10
123.6194512726
 20
46.8525627528
 30
0.0
 11
128.6194512726
 21
31.8525627528
 31
0.0
  0
LINE
  5
B8
330
1F
100
AcDbEntity
  8
0
  6
Continuous
 62
     7
370
    25
100
AcDbLine
 10
160.6194512726
 20
31.8525627528
 30
0.0
 11
165.6194512726
 21
46.8525627528
 31
0.0
  0
LINE
  5
B9
330
1F
100
AcDbEntity
  8
0
  6
Continuous
 62
     7
370
    25
100
AcDbLine
 10
128.6194512726
 20
31.8525627528
 30
0.0
 11
128.6194512726
 21
-29.1474372472
 31
0.0
  0
LINE
  5
BA
330
1F
100
AcDbEntity
  8
0
  6
Continuous
 62
     7
370
    25
100
AcDbLine
 10
160.6194512726
 20
-29.1474372472
 30
0.0
 11
160.6194512726
 21
31.8525627528
 31
0.0
  0
LINE
  5
BB
330
1F
100
AcDbEntity
  8
0
  6
Continuous
 62
     7
370
    25
100
AcDbLine
 10
110.6194512726
 20
56.8525627528
 30
0.0
 11
178.6194512726
 21
56.8525627528
 31
0.0
  0
LINE
  5
BC
330
1F
100
AcDbEntity
  8
0
  6
Continuous
 62
     7
370
    25
100
AcDbLine
 10
110.6194512726
 20
46.8525627528
 30
0.0
 11
178.6194512726
 21
46.8525627528
 31
0.0
  0
LINE
  5
BD
330
1F
100
AcDbEntity
  8
0
  6
Continuous
 62
     7
370
    25
100
AcDbLine
 10
128.6194512726
 20
31.8525627528
 30
0.0
 11
160.6194512726
 21
31.8525627528
 31
0.0
  0
LINE
  5
BE
330
1F
100
AcDbEntity
  8
0
  6
Continuous
 62
     7
370
    25
100
AcDbLine
 10
128.6194512726
 20
-29.1474372472
 30
0.0
 11
160.6194512726
 21
-29.1474372472
 31
0.0
  0
LINE
  5
BF
330
1F
100
AcDbEntity
  8
0
  6
Continuous
 62
     7
370
    25
100
AcDbLine
 10
235.7094414831
 20
32.0916088772
 30
0.0
 11
207.2410227584
 21
4.3055594622
 31
0.0
  0
LINE
  5
C0
330
1F
100
AcDbEntity
  8
0
  6
Continuous
 62
     7
370
    25
100
AcDbLine
 10
229.5923238352
 20
-18.5946444708
 30
0.0
 11
258.0607425599
 21
9.1914049442
 31
0.0
  0
LINE
  5
C1
330
1F
100
AcDbEntity
  8
0
  6
Continuous
 62
     7
370
    25
100
AcDbLine
 10
234.8042193506
 20
56.3606987597
 30
0.0
 11
230.1372654613
 21
51.8056086916
 31
0.0
  0
LINE
  5
C2
330
1F
100
AcDbEntity
  8
0
  6
Continuous
 62
     7
370
    25
100
AcDbLine
 10
277.6337802496
 20
3.142675334
 30
0.0
 11
282.3007341389
 21
7.697765402
 31
0.0
  0
LINE
  5
C3
330
1F
100
AcDbEntity
  8
0
  6
Continuous
 62
     7
370
    25
100
AcDbLine
 10
235.9488402024
 20
37.019547946
 30
0.0
 11
233.9593316675
 21
30.3834480451
 31
0.0
  0
LINE
  5
C4
330
1F
100
AcDbEntity
  8
0
  6
Continuous
 62
     7
370
    25
100
AcDbLine
 10
256.3106327443
 20
7.4832441121
 30
0.0
 11
262.9930386483
 21
9.3111985534
 31
0.0
  0
LWPOLYLINE
  5
C5
330
1F
100
AcDbEntity
  8
0
  6
Continuous
 62
     7
370
    25
100
AcDbPolyline
 90
       85
 70
   128
 43
0.0
 10
204.2659833499
 20
-3.2986881894
 10
204.305551549
 20
-2.2845428965
 10
204.424034865
 20
-1.2975766927
 10
204.620770691
 20
-0.3433090936
 10
204.8946588005
 20
0.5729232495
 10
205.2441675
 20
1.4459963936
 10
205.6673421953
 20
2.2710277596
 10
206.1618163217
 20
3.0434034373
 10
206.7248245794
 20
3.7588039887
 10
207.3532183977
 20
4.4132286037
 10
208.0434835435
 20
5.0030174744
 10
208.7917597743
 20
5.5248722621
 10
209.5938624256
 20
5.9758745434
 10
210.4453058143
 20
6.3535021303
 10
211.3413283233
 20
6.6556431764
 10
212.2769190315
 20
6.8806079862
 10
213.2468457361
 20
7.0271384654
 10
214.2456842134
 20
7.094415156
 10
215.2678485537
 20
7.0820618195
 10
216.3076223991
 20
6.9901475408
 10
217.3591909127
 20
6.8191863418
 10
218.4166732968
 20
6.5701343069
 10
219.4741556808
 20
6.2443842361
 10
220.5257241944
 20
5.8437578558
 10
221.5654980399
 20
5.3704956315
 10
222.5876623801
 20
4.8272442373
 10
223.5865008574
 20
4.2170417554
 10
224.556427562
 20
3.5433006857
 10
225.4920182702
 20
2.8097888614
 10
226.3880407793
 20
2.0206083783
 10
227.2394841679
 20
1.1801726538
 10
228.0415868193
 20
0.2931817452
 10
228.78986305
 20
-0.6354039343
 10
229.4801281958
 20
-1.6003913572
 10
230.1085220142
 20
-2.5963839221
 10
230.6715302718
 20
-3.6178116347
 10
231.1660043982
 20
-4.6589622569
 10
231.5891790935
 20
-5.7140132522
 10
231.9386877931
 20
-6.7770643472
 10
232.2125759026
 20
-7.8421705292
 10
232.4093117286
 20
-8.9033752923
 10
232.5277950445
 20
-9.954743949
 10
232.5673632436
 20
-10.9903968193
 10
232.5277950445
 20
-12.0045421122
 10
232.4093117286
 20
-12.9915083159
 10
232.2125759026
 20
-13.9457759151
 10
231.9386877931
 20
-14.8620082582
 10
231.5891790935
 20
-15.7350814023
 10
231.1660043982
 20
-16.5601127682
 10
230.6715302718
 20
-17.3324884459
 10
230.1085220142
 20
-18.0478889973
 10
229.4801281958
 20
-18.7023136123
 10
228.78986305
 20
-19.292102483
 10
228.0415868193
 20
-19.8139572708
 10
227.2394841679
 20
-20.264959552
 10
226.3880407793
 20
-20.642587139
 10
225.4920182702
 20
-20.944728185
 10
224.556427562
 20
-21.1696929949
 10
223.5865008574
 20
-21.316223474
 10
222.5876623801
 20
-21.3835001647
 10
221.5654980399
 20
-21.3711468282
 10
220.5257241944
 20
-21.2792325495
 10
219.4741556808
 20
-21.1082713505
 10
218.4166732968
 20
-20.8592193156
 10
217.3591909127
 20
-20.5334692447
 10
216.3076223991
 20
-20.1328428645
 10
215.2678485537
 20
-19.6595806401
 10
214.2456842134
 20
-19.1163292459
 10
213.2468457361
 20
-18.5061267641
 10
212.2769190315
 20
-17.8323856943
 10
211.3413283233
 20
-17.0988738701
 10
210.4453058143
 20
-16.309693387
 10
209.5938624256
 20
-15.4692576624
 10
208.7917597743
 20
-14.5822667539
 10
208.0434835435
 20
-13.6536810743
 10
207.3532183977
 20
-12.6886936515
 10
206.7248245794
 20
-11.6927010866
 10
206.1618163217
 20
-10.671273374
 10
205.6673421953
 20
-9.6301227517
 10
205.2441675
 20
-8.5750717565
 10
204.8946588005
 20
-7.5120206614
 10
204.620770691
 20
-6.4469144795
 10
204.424034865
 20
-5.3857097164
 10
204.305551549
 20
-4.3343410597
 10
204.2659833499
 20
-3.2986881894
  0
LWPOLYLINE
  5
C6
330
1F
100
AcDbEntity
  8
0
  6
Continuous
 62
     7
370
    25
100
AcDbPolyline
 90
       77
 70
   128
 43
0.0
 10
206.919237715
 20
-4.0197858734
 10
206.9585072866
 20
-3.1102624111
 10
207.0760477505
 20
-2.2282971725
 10
207.2710561861
 20
-1.3799148745
 10
207.5422004881
 20
-0.5709108285
 10
207.887628466
 20
0.1931886476
 10
208.3049804964
 20
0.9071639796
 10
208.7914056417
 20
1.566137992
 10
209.343581125
 20
2.165609224
 10
209.9577350278
 20
2.7014826794
 10
210.6296720563
 20
3.170097799
 10
211.3548021991
 20
3.5682534665
 10
212.1281720822
 20
3.8932298748
 10
212.944498805
 20
4.1428071057
 10
213.7982060283
 20
4.3152802935
 10
214.6834620661
 20
4.4094712714
 10
215.5942197221
 20
4.4247366197
 10
216.5242575979
 20
4.3609720605
 10
217.4672225918
 20
4.2186131703
 10
218.4166732968
 20
3.9986324048
 10
219.3661240017
 20
3.7025324556
 10
220.3090889956
 20
3.3323359857
 10
221.2391268714
 20
2.8905718122
 10
222.1498845274
 20
2.3802576326
 10
223.0351405652
 20
1.8048794099
 10
223.8888477885
 20
1.168367561
 10
224.7051745114
 20
0.4750701072
 10
225.4785443944
 20
-0.270277027
 10
226.2036745373
 20
-1.0625823648
 10
226.8756115657
 20
-1.8964336574
 10
227.4897654685
 20
-2.7661348549
 10
228.0419409518
 20
-3.6657450163
 10
228.5283660971
 20
-4.589118892
 10
228.9457181275
 20
-5.5299489021
 10
229.2911461054
 20
-6.4818082237
 10
229.5622904074
 20
-7.4381946925
 10
229.757298843
 20
-8.392575219
 10
229.8748393069
 20
-9.3384304166
 10
229.9141088786
 20
-10.2692991352
 10
229.8748393069
 20
-11.1788225976
 10
229.757298843
 20
-12.0607878362
 10
229.5622904074
 20
-12.9091701342
 10
229.2911461054
 20
-13.7181741802
 10
228.9457181275
 20
-14.4822736563
 10
228.5283660971
 20
-15.1962489883
 10
228.0419409518
 20
-15.8552230006
 10
227.4897654685
 20
-16.4546942327
 10
226.8756115657
 20
-16.9905676881
 10
226.2036745373
 20
-17.4591828077
 10
225.4785443944
 20
-17.8573384752
 10
224.7051745114
 20
-18.1823148835
 10
223.8888477885
 20
-18.4318921144
 10
223.0351405652
 20
-18.6043653022
 10
222.1498845274
 20
-18.6985562801
 10
221.2391268714
 20
-18.7138216284
 10
220.3090889956
 20
-18.6500570691
 10
219.3661240017
 20
-18.507698179
 10
218.4166732968
 20
-18.2877174135
 10
217.4672225918
 20
-17.9916174643
 10
216.5242575979
 20
-17.6214209944
 10
215.5942197221
 20
-17.1796568209
 10
214.6834620661
 20
-16.6693426412
 10
213.7982060283
 20
-16.0939644186
 10
212.944498805
 20
-15.4574525697
 10
212.1281720822
 20
-14.7641551158
 10
211.3548021991
 20
-14.0188079817
 10
210.6296720563
 20
-13.2265026439
 10
209.9577350278
 20
-12.3926513513
 10
209.343581125
 20
-11.5229501538
 10
208.7914056417
 20
-10.6233399924
 10
208.3049804964
 20
-9.6999661167
 10
207.887628466
 20
-8.7591361066
 10
207.5422004881
 20
-7.807276785
 10
207.2710561861
 20
-6.8508903162
 10
207.0760477505
 20
-5.8965097897
 10
206.9585072866
 20
-4.9506545921
 10
206.919237715
 20
-4.0197858734
  0
LWPOLYLINE
  5
C7
330
1F
100
AcDbEntity
  8
0
  6
Continuous
 62
     7
370
    25
100
AcDbPolyline
 90
       44
 70
   128
 43
0.0
 10
235.7094414831
 20
32.0916088772
 10
235.8216371224
 20
32.1992780187
 10
236.5119022683
 20
32.7890668894
 10
237.260178499
 20
33.3109216772
 10
238.0622811504
 20
33.7619239584
 10
238.913724539
 20
34.1395515454
 10
239.8097470481
 20
34.4416925914
 10
240.7453377563
 20
34.6666574013
 10
241.7152644608
 20
34.8131878804
 10
242.7141029382
 20
34.880464571
 10
243.7362672784
 20
34.8681112346
 10
244.7760411239
 20
34.7761969559
 10
245.8276096375
 20
34.6052357569
 10
246.8850920215
 20
34.356183722
 10
247.9425744055
 20
34.0304336511
 10
248.9941429191
 20
33.6298072709
 10
250.0339167646
 20
33.1565450465
 10
251.0560811048
 20
32.6132936523
 10
252.0549195822
 20
32.0030911705
 10
253.0248462867
 20
31.3293501007
 10
253.9604369949
 20
30.5958382765
 10
254.856459504
 20
29.8066577934
 10
255.7079028926
 20
28.9662220688
 10
256.510005544
 20
28.0792311603
 10
257.2582817747
 20
27.1506454807
 10
257.9485469206
 20
26.1856580579
 10
258.5769407389
 20
25.189665493
 10
259.1399489965
 20
24.1682377803
 10
259.6344231229
 20
23.1270871581
 10
260.0575978182
 20
22.0720361629
 10
260.4071065178
 20
21.0089850678
 10
260.6809946273
 20
19.9438788858
 10
260.8777304533
 20
18.8826741228
 10
260.9962137692
 20
17.8313054661
 10
261.0357819683
 20
16.7956525958
 10
260.9962137692
 20
15.7815073028
 10
260.8777304533
 20
14.7945410991
 10
260.6809946273
 20
13.8402735
 10
260.4071065178
 20
12.9240411569
 10
260.0575978182
 20
12.0509680128
 10
259.6344231229
 20
11.2259366468
 10
259.1399489965
 20
10.4535609691
 10
258.5769407389
 20
9.7381604177
 10
258.0607425599
 20
9.1914049442
  0
LWPOLYLINE
  5
C8
330
1F
100
AcDbEntity
  8
0
  6
Continuous
 62
     7
370
    25
100
AcDbPolyline
 90
       64
 70
   128
 43
0.0
 10
234.8042193506
 20
56.3606987597
 10
234.8725933144
 20
56.4271089858
 10
235.8498006592
 20
57.3099479849
 10
236.8862366938
 20
58.1268324827
 10
237.9791974748
 20
58.8756313208
 10
239.1258315925
 20
59.5543909686
 10
240.3231476092
 20
60.1613406197
 10
241.5680218643
 20
60.6948968116
 10
242.8572066229
 20
61.1536675572
 10
244.1873385491
 20
61.5364559761
 10
245.5549474808
 20
61.8422634169
 10
246.9564654822
 20
62.070292063
 10
248.388236153
 20
62.2199470136
 10
249.846524167
 20
62.2908378361
 10
251.3275250172
 20
62.2827795844
 10
252.8273749416
 20
62.1957932816
 10
254.3421610029
 20
62.030105865
 10
255.8679312972
 20
61.7861495941
 10
257.4007052641
 20
61.464560923
 10
258.9364840712
 20
61.0661788399
 10
260.4712610471
 20
60.592042678
 10
262.0010321338
 20
60.0433894046
 10
263.5218063333
 20
59.4216503933
 10
265.0296161192
 20
58.7284476903
 10
266.5205277881
 20
57.9655897822
 10
267.9906517216
 20
57.1350668782
 10
269.4361525342
 20
56.2390457178
 10
270.8532590794
 20
55.2798639179
 10
272.2382742879
 20
54.2600238742
 10
273.5875848133
 20
53.1821862331
 10
274.8976704584
 20
52.0491629497
 10
276.1651133593
 20
50.8639099525
 10
277.3866069024
 20
49.6295194313
 10
278.5589643502
 20
48.34921177
 10
279.6791271563
 20
47.0263271451
 10
280.7441729436
 20
45.6643168114
 10
281.7513231294
 20
44.2667340986
 10
282.6979501737
 20
42.8372251402
 10
283.5815844348
 20
41.379519362
 10
284.3999206117
 20
39.8974197519
 10
285.1508237587
 20
38.3947929385
 10
285.8323348554
 20
36.8755591037
 10
286.442675917
 20
35.343681755
 10
286.9802546335
 20
33.8031573855
 10
287.4436685232
 20
32.2580050475
 10
287.8317085924
 20
30.7122558669
 10
288.1433624887
 20
29.1699425269
 10
288.3778171428
 20
27.6350887468
 10
288.5344608892
 20
26.111698785
 10
288.6128850622
 20
24.6037469919
 10
288.6128850622
 20
23.1151674416
 10
288.5344608892
 20
21.6498436681
 10
288.3778171428
 20
20.2115985339
 10
288.1433624887
 20
18.8041842563
 10
287.8317085924
 20
17.4312726185
 10
287.4436685232
 20
16.0964453901
 10
286.9802546335
 20
14.803184983
 10
286.442675917
 20
13.554865366
 10
285.8323348554
 20
12.3547432623
 10
285.1508237587
 20
11.2059496536
 10
284.3999206117
 20
10.1114816111
 10
283.5815844348
 20
9.0741944771
 10
282.6979501737
 20
8.0967944153
 10
282.3007341389
 20
7.697765402
  0
LWPOLYLINE
  5
C9
330
1F
100
AcDbEntity
  8
0
  6
Continuous
 62
     7
370
    25
100
AcDbPolyline
 90
       97
 70
   128
 43
0.0
 10
223.8153067184
 20
35.646582432
 10
223.8545315987
 20
37.1240159795
 10
223.9721039062
 20
38.5762741075
 10
224.1677169084
 20
39.9995680405
 10
224.4408602731
 20
41.3901845672
 10
224.7908214005
 20
42.7444957277
 10
225.2166872821
 20
44.058968279
 10
225.7173468823
 20
45.3301729121
 10
226.2914940374
 20
46.5547931994
 10
226.9376308631
 20
47.7296342464
 10
227.6540716621
 20
48.8516310268
 10
228.4389473222
 20
49.9178563793
 10
229.2902101924
 20
50.9255286436
 10
230.2056394251
 20
51.8720189178
 10
231.1828467699
 20
52.7548579169
 10
232.2192828045
 20
53.5717424147
 10
233.3122435855
 20
54.3205412528
 10
234.4588777032
 20
54.9993009006
 10
235.6561937199
 20
55.6062505516
 10
236.901067975
 20
56.1398067435
 10
238.1902527336
 20
56.5985774892
 10
239.5203846598
 20
56.9813659081
 10
240.8879935915
 20
57.2871733489
 10
242.2895115929
 20
57.515201995
 10
243.7212822637
 20
57.6648569456
 10
245.1795702777
 20
57.7357477681
 10
246.6605711279
 20
57.7276895164
 10
248.1604210523
 20
57.6407032136
 10
249.6752071136
 20
57.4750157969
 10
251.2009774079
 20
57.231059526
 10
252.7337513747
 20
56.909470855
 10
254.2695301819
 20
56.5110887718
 10
255.8043071578
 20
56.03695261
 10
257.3340782445
 20
55.4882993365
 10
258.854852444
 20
54.8665603253
 10
260.3626622299
 20
54.1733576222
 10
261.8535738988
 20
53.4104997141
 10
263.3236978323
 20
52.5799768102
 10
264.7691986449
 20
51.6839556498
 10
266.1863051901
 20
50.7247738499
 10
267.5713203986
 20
49.7049338062
 10
268.920630924
 20
48.627096165
 10
270.2307165691
 20
47.4940728817
 10
271.49815947
 20
46.3088198845
 10
272.7196530131
 20
45.0744293633
 10
273.8920104609
 20
43.794121702
 10
275.012173267
 20
42.471237077
 10
276.0772190543
 20
41.1092267434
 10
277.0843692401
 20
39.7116440306
 10
278.0309962844
 20
38.2821350722
 10
278.9146305455
 20
36.824429294
 10
279.7329667224
 20
35.3423296839
 10
280.4838698694
 20
33.8397028705
 10
281.1653809661
 20
32.3204690356
 10
281.7757220277
 20
30.7885916869
 10
282.3133007442
 20
29.2480673175
 10
282.7767146339
 20
27.7029149794
 10
283.1647547031
 20
26.1571657988
 10
283.4764085994
 20
24.6148524588
 10
283.7108632535
 20
23.0799986788
 10
283.8675069999
 20
21.556608717
 10
283.9459311729
 20
20.0486569239
 10
283.9459311729
 20
18.5600773736
 10
283.8675069999
 20
17.0947536001
 10
283.7108632535
 20
15.6565084659
 10
283.4764085994
 20
14.2490941883
 10
283.1647547031
 20
12.8761825505
 10
282.7767146339
 20
11.5413553221
 10
282.3133007442
 20
10.248094915
 10
281.7757220277
 20
8.999775298
 10
281.1653809661
 20
7.7996531943
 10
280.4838698694
 20
6.6508595856
 10
279.7329667224
 20
5.5563915431
 10
278.9146305455
 20
4.5191044091
 10
278.0309962844
 20
3.5417043472
 10
277.0843692401
 20
2.6267412826
 10
276.0772190543
 20
1.7766022495
 10
275.012173267
 20
0.9935051636
 10
273.8920104609
 20
0.2794930356
 10
272.7196530131
 20
-0.3635713582
 10
271.49815947
 20
-0.9340103363
 10
270.2307165691
 20
-1.4303356885
 10
268.920630924
 20
-1.8512525587
 10
267.5713203986
 20
-2.1956628227
 10
266.1863051901
 20
-2.4626679536
 10
264.7691986449
 20
-2.6515713655
 10
263.3236978323
 20
-2.7618802308
 10
261.8535738988
 20
-2.7933067664
 10
260.3626622299
 20
-2.745768984
 10
258.854852444
 20
-2.6193909043
 10
257.3340782445
 20
-2.4145022333
 10
255.8043071578
 20
-2.131637502
 10
254.2695301819
 20
-1.7715346723
 10
252.7337513747
 20
-1.3351332114
 10
251.2009774079
 20
-0.8235716409
 10
249.6752071136
 20
-0.2381845664
 10
248.7856915805
 20
0.1386708485
  0
ARC
  5
CA
330
1F
100
AcDbEntity
  8
0
  6
Continuous
 62
     7
370
    25
100
AcDbCircle
 10
257.3285511274
 20
36.0326200149
 30
0.0
 40
33.51546771013461
100
AcDbArc
 50
180.6599583667
 51
202.8110883007
  0
LWPOLYLINE
  5
CB
330
1F
100
AcDbEntity
  8
0
  6
Continuous
 62
     7
370
    25
100
AcDbPolyline
 90
       62
 70
   128
 43
0.0
 10
235.9488402024
 20
37.019547946
 10
236.2783563918
 20
37.9879295918
 10
236.6978774361
 20
38.9664908396
 10
237.1894894385
 20
39.8968491825
 10
237.7511304073
 20
40.7751023744
 10
238.3804446252
 20
41.5975667161
 10
239.0747925295
 20
42.3607925064
 10
239.8312617839
 20
43.061578511
 10
240.6466794935
 20
43.69698539
 10
241.5176255129
 20
44.264348026
 10
242.440446792
 20
44.7612867029
 10
243.4112726975
 20
45.1857170873
 10
244.4260312482
 20
45.5358589707
 10
245.4804661941
 20
45.8102437362
 10
246.5701548686
 20
46.0077205188
 10
247.6905267387
 20
46.1274610324
 10
248.8368825755
 20
46.1689630434
 10
250.0044141641
 20
46.1320524782
 10
251.1882244714
 20
46.0168841524
 10
252.3833481854
 20
45.823941122
 10
253.5847725421
 20
45.5540326571
 10
254.7874583501
 20
45.2082908476
 10
255.9863611271
 20
44.7881658549
 10
257.1764522584
 20
44.2954198292
 10
258.3527400881
 20
43.7321195184
 10
259.5102908562
 20
43.1006276
 10
260.6442493926
 20
42.4035927704
 10
261.7498594811
 20
41.643938636
 10
262.8224838087
 20
40.8248514503
 10
263.8576234163
 20
39.9497667494
 10
264.8509365686
 20
39.0223549428
 10
265.798256965
 20
38.0465059179
 10
266.6956112146
 20
37.0263127246
 10
267.5392355017
 20
35.9660544077
 10
268.3255913731
 20
34.8701780591
 10
269.0513805788
 20
33.743280165
 10
269.7135589067
 20
32.5900873268
 10
270.3093489508
 20
31.4154364361
 10
270.8362517605
 20
30.2242543868
 10
271.2920573224
 20
29.0215374106
 10
271.6748538296
 20
27.8123301202
 10
271.9830357004
 20
26.6017043515
 10
272.215310313
 20
25.3947378894
 10
272.370703427
 20
24.1964931709
 10
272.4485632696
 20
23.0119960507
 10
272.4485632696
 20
21.8462147214
 10
272.370703427
 20
20.704038875
 10
272.215310313
 20
19.5902591939
 10
271.9830357004
 20
18.5095472572
 10
271.6748538296
 20
17.4664359463
 10
271.2920573224
 20
16.4653004326
 10
270.8362517605
 20
15.5103398263
 10
270.3093489508
 20
14.6055595641
 10
269.7135589067
 20
13.7547546089
 10
269.0513805788
 20
12.9614935322
 10
268.3255913731
 20
12.2291035468
 10
267.5392355017
 20
11.5606565507
 10
266.6956112146
 20
10.958956243
 10
265.798256965
 20
10.4265263638
 10
264.8509365686
 20
9.9656001091
 10
263.8576234163
 20
9.5781107638
 10
262.9930386483
 20
9.3111985534
  0
ENDSEC
  0
SECTION
  2
OBJECTS
  0
DICTIONARY
  5
C
330
0
100
AcDbDictionary
281
     1
  3
ACAD_GROUP
350
D
  3
ACAD_LAYOUT
350
1A
  3
ACAD_MLINESTYLE
350
17
  3
ACAD_PLOTSETTINGS
350
19
  3
ACAD_PLOTSTYLENAME
350
E
  3
ACAD_SCALELIST
350
47
  0
DICTIONARY
  5
D
102
{ACAD_REACTORS
330
C
102
}
330
C
100
AcDbDictionary
281
     1
  0
DICTIONARY
  5
1A
102
{ACAD_REACTORS
330
C
102
}
330
C
100
AcDbDictionary
281
     1
  3
Layout1
350
1E
  3
Layout2
350
26
  3
Model
350
22
  0
DICTIONARY
  5
17
102
{ACAD_REACTORS
330
C
102
}
330
C
100
AcDbDictionary
281
     1
  3
Standard
350
18
  0
DICTIONARY
  5
19
102
{ACAD_REACTORS
330
C
102
}
330
C
100
AcDbDictionary
281
     1
  0
ACDBDICTIONARYWDFLT
  5
E
102
{ACAD_REACTORS
330
C
102
}
330
C
100
AcDbDictionary
281
     1
  3
Normal
350
F
100
AcDbDictionaryWithDefault
340
F
  0
DICTIONARY
  5
47
102
{ACAD_REACTORS
330
C
102
}
330
C
100
AcDbDictionary
281
     1
  3
A0
350
48
  3
A1
350
49
  3
A2
350
4A
  3
A3
350
4B
  3
A4
350
4C
  3
A5
350
4D
  3
A6
350
4E
  3
A7
350
4F
  3
A8
350
50
  3
A9
350
51
  3
B0
350
52
  3
B1
350
53
  3
B2
350
54
  3
B3
350
55
  3
B4
350
56
  3
B5
350
57
  3
B6
350
58
  3
B7
350
59
  3
B8
350
5A
  3
B9
350
5B
  3
C0
350
5C
  3
C1
350
5D
  3
C2
350
5E
  3
C3
350
5F
  3
C4
350
60
  3
C5
350
61
  3
C6
350
62
  3
C7
350
63
  3
C8
350
64
  3
C9
350
65
  3
D0
350
66
  3
D1
350
67
  3
D2
350
68
  0
LAYOUT
  5
1E
102
{ACAD_REACTORS
330
1A
102
}
330
1A
100
AcDbPlotSettings
  1

  2
none_device
  4

  6

 40
0.0
 41
0.0
 42
0.0
 43
0.0
 44
0.0
 45
0.0
 46
0.0
 47
0.0
 48
0.0
 49
0.0
140
0.0
141
0.0
142
1.0
143
1.0
 70
   688
 72
     1
 73
     0
 74
     5
  7

 75
    16
147
1.0
148
0.0
149
0.0
100
AcDbLayout
  1
Layout1
 70
     1
 71
     1
 10
0.0
 20
0.0
 11
420.0
 21
297.0
 12
0.0
 22
0.0
 32
0.0
 14
1.0000000000E+20
 24
1.0000000000E+20
 34
1.0000000000E+20
 15
-1.0000000000E+20
 25
-1.0000000000E+20
 35
-1.0000000000E+20
146
0.0
 13
0.0
 23
0.0
 33
0.0
 16
1.0
 26
0.0
 36
0.0
 17
0.0
 27
1.0
 37
0.0
 76
     0
330
1B
  0
LAYOUT
  5
26
102
{ACAD_REACTORS
330
1A
102
}
330
1A
100
AcDbPlotSettings
  1

  2
none_device
  4

  6

 40
0.0
 41
0.0
 42
0.0
 43
0.0
 44
0.0
 45
0.0
 46
0.0
 47
0.0
 48
0.0
 49
0.0
140
0.0
141
0.0
142
1.0
143
1.0
 70
   688
 72
     1
 73
     0
 74
     5
  7

 75
    16
147
1.0
148
0.0
149
0.0
100
AcDbLayout
  1
Layout2
 70
     1
 71
     2
 10
0.0
 20
0.0
 11
0.0
 21
0.0
 12
0.0
 22
0.0
 32
0.0
 14
0.0
 24
0.0
 34
0.0
 15
0.0
 25
0.0
 35
0.0
146
0.0
 13
0.0
 23
0.0
 33
0.0
 16
1.0
 26
0.0
 36
0.0
 17
0.0
 27
1.0
 37
0.0
 76
     0
330
23
  0
LAYOUT
  5
22
102
{ACAD_REACTORS
330
1A
102
}
330
1A
100
AcDbPlotSettings
  1

  2
none_device
  4
Letter_(8.50_x_11.00_Inches)
  6

 40
6.35
 41
6.35
 42
6.35000508
 43
6.35000508
 44
215.9
 45
279.4
 46
0.0
 47
0.0
 48
0.0
 49
0.0
140
0.0
141
0.0
142
1.0
143
1.0
 70
  1712
 72
     1
 73
     0
 74
     0
  7

 75
     0
147
1.0
148
0.0
149
0.0
100
AcDbLayout
  1
Model
 70
     1
 71
     0
 10
0.0
 20
0.0
 11
279.4
 21
215.9
 12
0.0
 22
0.0
 32
0.0
 14
0.0
 24
0.0
 34
0.0
 15
279.4
 25
215.9
 35
0.0
146
0.0
 13
0.0
 23
0.0
 33
0.0
 16
1.0
 26
0.0
 36
0.0
 17
0.0
 27
1.0
 37
0.0
 76
     0
330
1F
331
29
  0
MLINESTYLE
  5
18
102
{ACAD_REACTORS
330
17
102
}
330
17
100
AcDbMlineStyle
  2
Standard
 70
     0
  3

 62
   256
 51
90.0
 52
90.0
 71
     2
 49
0.5
 62
   256
  6
BYLAYER
 49
-0.5
 62
   256
  6
BYLAYER
  0
ACDBPLACEHOLDER
  5
F
102
{ACAD_REACTORS
330
E
102
}
330
E
  0
SCALE
  5
48
102
{ACAD_REACTORS
330
47
102
}
330
47
100
AcDbScale
 70
     0
300
1:1
140
1.0
141
1.0
290
     1
  0
SCALE
  5
49
102
{ACAD_REACTORS
330
47
102
}
330
47
100
AcDbScale
 70
     0
300
1:2
140
1.0
141
2.0
290
     0
  0
SCALE
  5
4A
102
{ACAD_REACTORS
330
47
102
}
330
47
100
AcDbScale
 70
     0
300
1:4
140
1.0
141
4.0
290
     0
  0
SCALE
  5
4B
102
{ACAD_REACTORS
330
47
102
}
330
47
100
AcDbScale
 70
     0
300
1:5
140
1.0
141
5.0
290
     0
  0
SCALE
  5
4C
102
{ACAD_REACTORS
330
47
102
}
330
47
100
AcDbScale
 70
     0
300
1:8
140
1.0
141
8.0
290
     0
  0
SCALE
  5
4D
102
{ACAD_REACTORS
330
47
102
}
330
47
100
AcDbScale
 70
     0
300
1:10
140
1.0
141
10.0
290
     0
  0
SCALE
  5
4E
102
{ACAD_REACTORS
330
47
102
}
330
47
100
AcDbScale
 70
     0
300
1:16
140
1.0
141
16.0
290
     0
  0
SCALE
  5
4F
102
{ACAD_REACTORS
330
47
102
}
330
47
100
AcDbScale
 70
     0
300
1:20
140
1.0
141
20.0
290
     0
  0
SCALE
  5
50
102
{ACAD_REACTORS
330
47
102
}
330
47
100
AcDbScale
 70
     0
300
1:30
140
1.0
141
30.0
290
     0
  0
SCALE
  5
51
102
{ACAD_REACTORS
330
47
102
}
330
47
100
AcDbScale
 70
     0
300
1:40
140
1.0
141
40.0
290
     0
  0
SCALE
  5
52
102
{ACAD_REACTORS
330
47
102
}
330
47
100
AcDbScale
 70
     0
300
1:50
140
1.0
141
50.0
290
     0
  0
SCALE
  5
53
102
{ACAD_REACTORS
330
47
102
}
330
47
100
AcDbScale
 70
     0
300
1:100
140
1.0
141
100.0
290
     0
  0
SCALE
  5
54
102
{ACAD_REACTORS
330
47
102
}
330
47
100
AcDbScale
 70
     0
300
2:1
140
2.0
141
1.0
290
     0
  0
SCALE
  5
55
102
{ACAD_REACTORS
330
47
102
}
330
47
100
AcDbScale
 70
     0
300
4:1
140
4.0
141
1.0
290
     0
  0
SCALE
  5
56
102
{ACAD_REACTORS
330
47
102
}
330
47
100
AcDbScale
 70
     0
300
8:1
140
8.0
141
1.0
290
     0
  0
SCALE
  5
57
102
{ACAD_REACTORS
330
47
102
}
330
47
100
AcDbScale
 70
     0
300
10:1
140
10.0
141
1.0
290
     0
  0
SCALE
  5
58
102
{ACAD_REACTORS
330
47
102
}
330
47
100
AcDbScale
 70
     0
300
100:1
140
100.0
141
1.0
290
     0
  0
SCALE
  5
59
102
{ACAD_REACTORS
330
47
102
}
330
47
100
AcDbScale
 70
     0
300
1/128" = 1'-0"
140
0.0078125
141
12.0
290
     0
  0
SCALE
  5
5A
102
{ACAD_REACTORS
330
47
102
}
330
47
100
AcDbScale
 70
     0
300
1/64" = 1'-0"
140
0.015625
141
12.0
290
     0
  0
SCALE
  5
5B
102
{ACAD_REACTORS
330
47
102
}
330
47
100
AcDbScale
 70
     0
300
1/32" = 1'-0"
140
0.03125
141
12.0
290
     0
  0
SCALE
  5
5C
102
{ACAD_REACTORS
330
47
102
}
330
47
100
AcDbScale
 70
     0
300
1/16" = 1'-0"
140
0.0625
141
12.0
290
     0
  0
SCALE
  5
5D
102
{ACAD_REACTORS
330
47
102
}
330
47
100
AcDbScale
 70
     0
300
3/32" = 1'-0"
140
0.09375
141
12.0
290
     0
  0
SCALE
  5
5E
102
{ACAD_REACTORS
330
47
102
}
330
47
100
AcDbScale
 70
     0
300
1/8" = 1'-0"
140
0.125
141
12.0
290
     0
  0
SCALE
  5
5F
102
{ACAD_REACTORS
330
47
102
}
330
47
100
AcDbScale
 70
     0
300
3/16" = 1'-0"
140
0.1875
141
12.0
290
     0
  0
SCALE
  5
60
102
{ACAD_REACTORS
330
47
102
}
330
47
100
AcDbScale
 70
     0
300
1/4" = 1'-0"
140
0.25
141
12.0
290
     0
  0
SCALE
  5
61
102
{ACAD_REACTORS
330
47
102
}
330
47
100
AcDbScale
 70
     0
300
3/8" = 1'-0"
140
0.375
141
12.0
290
     0
  0
SCALE
  5
62
102
{ACAD_REACTORS
330
47
102
}
330
47
100
AcDbScale
 70
     0
300
1/2" = 1'-0"
140
0.5
141
12.0
290
     0
  0
SCALE
  5
63
102
{ACAD_REACTORS
330
47
102
}
330
47
100
AcDbScale
 70
     0
300
3/4" = 1'-0"
140
0.75
141
12.0
290
     0
  0
SCALE
  5
64
102
{ACAD_REACTORS
330
47
102
}
330
47
100
AcDbScale
 70
     0
300
1" = 1'-0"
140
1.0
141
12.0
290
     0
  0
SCALE
  5
65
102
{ACAD_REACTORS
330
47
102
}
330
47
100
AcDbScale
 70
     0
300
1-1/2" = 1'-0"
140
1.5
141
12.0
290
     0
  0
SCALE
  5
66
102
{ACAD_REACTORS
330
47
102
}
330
47
100
AcDbScale
 70
     0
300
3" = 1'-0"
140
3.0
141
12.0
290
     0
  0
SCALE
  5
67
102
{ACAD_REACTORS
330
47
102
}
330
47
100
AcDbScale
 70
     0
300
6" = 1'-0"
140
6.0
141
12.0
290
     0
  0
SCALE
  5
68
102
{ACAD_REACTORS
330
47
102
}
330
47
100
AcDbScale
 70
     0
300
1'-0" = 1'-0"
140
12.0
141
12.0
290
     0
  0
ENDSEC
  0
EOF
